ISO-10303-21;
HEADER;
FILE_DESCRIPTION (( 'STEP AP203' ),
    '1' );
FILE_NAME ('Q-QZWP-R4-10-1030-M.STEP',
    '2020-12-23T01:21:05',
    ( '' ),
    ( '' ),
    'SwSTEP 2.0',
    'SolidWorks 2020',
    '' );
FILE_SCHEMA (( 'CONFIG_CONTROL_DESIGN' ));
ENDSEC;

DATA;
#1 = APPROVAL_STATUS ( 'not_yet_approved' ) ;
#2 = CYLINDRICAL_SURFACE ( 'NONE', #97, 5.000000000000000888 ) ;
#3 = CC_DESIGN_APPROVAL ( #335, ( #24 ) ) ;
#4 = DIRECTION ( 'NONE',  ( 0.000000000000000000, 0.000000000000000000, 1.000000000000000000 ) ) ;
#5 = CARTESIAN_POINT ( 'NONE',  ( -1.614212418857619014, 0.000000000000000000, 0.000000000000000000 ) ) ;
#6 = CARTESIAN_POINT ( 'NONE',  ( -1.614212418857619014, 1.555301434917138433E-15, -12.69999999999999929 ) ) ;
#7 = DIRECTION ( 'NONE',  ( -1.000000000000000000, -0.000000000000000000, -0.000000000000000000 ) ) ;
#8 = CARTESIAN_POINT ( 'NONE',  ( 3.000000000000000000, 0.000000000000000000, 12.69999999999999929 ) ) ;
#9 = AXIS2_PLACEMENT_3D ( 'NONE', #240, #29, #184 ) ;
#10 = ORIENTED_EDGE ( 'NONE', *, *, #248, .F. ) ;
#11 = ADVANCED_FACE ( 'NONE', ( #93 ), #126, .F. ) ;
#12 = CARTESIAN_POINT ( 'NONE',  ( 3.000000000000000000, 0.000000000000000000, 5.000000000000001776 ) ) ;
#13 = EDGE_LOOP ( 'NONE', ( #204, #18 ) ) ;
#14 = CARTESIAN_POINT ( 'NONE',  ( -3.000000000000000000, 0.000000000000000000, 0.000000000000000000 ) ) ;
#15 = CARTESIAN_POINT ( 'NONE',  ( -1.614212418857619014, 0.000000000000000000, 0.000000000000000000 ) ) ;
#16 = DIRECTION ( 'NONE',  ( -1.000000000000000000, -0.000000000000000000, -0.000000000000000000 ) ) ;
#17 = APPLICATION_CONTEXT ( 'configuration controlled 3d designs of mechanical parts and assemblies' ) ;
#18 = ORIENTED_EDGE ( 'NONE', *, *, #104, .F. ) ;
#19 = PERSON_AND_ORGANIZATION ( #34, #58 ) ;
#20 = ORIENTED_EDGE ( 'NONE', *, *, #252, .T. ) ;
#21 = APPROVAL_ROLE ( '' ) ;
#22 = PLANE ( 'NONE',  #261 ) ;
#23 = ORIENTED_EDGE ( 'NONE', *, *, #316, .T. ) ;
#24 = PRODUCT_DEFINITION_FORMATION_WITH_SPECIFIED_SOURCE ( 'ANY', '', #203, .NOT_KNOWN. ) ;
#25 = ORIENTED_EDGE ( 'NONE', *, *, #70, .T. ) ;
#26 = ORIENTED_EDGE ( 'NONE', *, *, #223, .F. ) ;
#27 = VECTOR ( 'NONE', #329, 1000.000000000000000 ) ;
#28 = FACE_OUTER_BOUND ( 'NONE', #152, .T. ) ;
#29 = DIRECTION ( 'NONE',  ( 1.000000000000000000, 0.000000000000000000, 0.000000000000000000 ) ) ;
#30 = CIRCLE ( 'NONE', #265, 5.000000000000000000 ) ;
#31 = APPROVAL_ROLE ( '' ) ;
#32 = CYLINDRICAL_SURFACE ( 'NONE', #199, 5.000000000000000888 ) ;
#33 = CARTESIAN_POINT ( 'NONE',  ( 3.000000000000000000, 1.555301434917138433E-15, -12.69999999999999929 ) ) ;
#34 = PERSON ( 'UNSPECIFIED', 'UNSPECIFIED', 'UNSPECIFIED', ('UNSPECIFIED'), ('UNSPECIFIED'), ('UNSPECIFIED') ) ;
#35 = ADVANCED_FACE ( 'NONE', ( #205 ), #302, .F. ) ;
#36 = CARTESIAN_POINT ( 'NONE',  ( 3.000000000000000000, 0.000000000000000000, 0.000000000000000000 ) ) ;
#37 = APPROVAL_PERSON_ORGANIZATION ( #148, #335, #299 ) ;
#38 = EDGE_CURVE ( 'NONE', #255, #245, #232, .T. ) ;
#39 = DIRECTION ( 'NONE',  ( 0.000000000000000000, 0.000000000000000000, 1.000000000000000000 ) ) ;
#40 = AXIS2_PLACEMENT_3D ( 'NONE', #72, #96, #198 ) ;
#41 = LINE ( 'NONE', #319, #233 ) ;
#42 = EDGE_LOOP ( 'NONE', ( #10, #303 ) ) ;
#43 = CARTESIAN_POINT ( 'NONE',  ( -3.000000000000000000, 0.000000000000000000, 0.000000000000000000 ) ) ;
#44 = DIRECTION ( 'NONE',  ( 0.000000000000000000, 0.000000000000000000, 1.000000000000000000 ) ) ;
#45 = APPROVAL_STATUS ( 'not_yet_approved' ) ;
#46 = ORIENTED_EDGE ( 'NONE', *, *, #187, .T. ) ;
#47 = ORIENTED_EDGE ( 'NONE', *, *, #304, .T. ) ;
#48 = ADVANCED_FACE ( 'NONE', ( #128, #235 ), #22, .F. ) ;
#49 = ORIENTED_EDGE ( 'NONE', *, *, #258, .F. ) ;
#50 = ORIENTED_EDGE ( 'NONE', *, *, #304, .F. ) ;
#51 = ADVANCED_FACE ( 'NONE', ( #139 ), #59, .T. ) ;
#52 = LOCAL_TIME ( 9, 21, 5.000000000000000000, #78 ) ;
#53 = ORIENTED_EDGE ( 'NONE', *, *, #104, .T. ) ;
#54 = CALENDAR_DATE ( 2020, 23, 12 ) ;
#55 = DIRECTION ( 'NONE',  ( -1.000000000000000000, -0.000000000000000000, -0.000000000000000000 ) ) ;
#56 = DIRECTION ( 'NONE',  ( 1.000000000000000000, 0.000000000000000000, 0.000000000000000000 ) ) ;
#57 = DIRECTION ( 'NONE',  ( -1.000000000000000000, -0.000000000000000000, -0.000000000000000000 ) ) ;
#58 = ORGANIZATION ( 'UNSPECIFIED', 'UNSPECIFIED', '' ) ;
#59 = CYLINDRICAL_SURFACE ( 'NONE', #79, 12.69999999999999929 ) ;
#60 = DIRECTION ( 'NONE',  ( 0.000000000000000000, 0.000000000000000000, -1.000000000000000000 ) ) ;
#61 = MANIFOLD_SOLID_BREP ( 'Ðý×', #287 ) ;
#62 = EDGE_CURVE ( 'NONE', #95, #115, #135, .T. ) ;
#63 =( NAMED_UNIT ( * ) SI_UNIT ( $, .STERADIAN. ) SOLID_ANGLE_UNIT ( ) );
#64 = DIRECTION ( 'NONE',  ( 0.000000000000000000, 0.000000000000000000, 1.000000000000000000 ) ) ;
#65 = APPROVAL_PERSON_ORGANIZATION ( #19, #200, #31 ) ;
#66 = CIRCLE ( 'NONE', #321, 12.69999999999999929 ) ;
#67 = DIRECTION ( 'NONE',  ( 0.000000000000000000, 0.000000000000000000, 1.000000000000000000 ) ) ;
#68 = ADVANCED_FACE ( 'NONE', ( #312 ), #80, .F. ) ;
#69 = CIRCLE ( 'NONE', #113, 5.000000000000000888 ) ;
#70 = EDGE_CURVE ( 'NONE', #95, #255, #275, .T. ) ;
#71 = ORIENTED_EDGE ( 'NONE', *, *, #170, .F. ) ;
#72 = CARTESIAN_POINT ( 'NONE',  ( -1.614212418857619014, 0.000000000000000000, 0.000000000000000000 ) ) ;
#73 = EDGE_LOOP ( 'NONE', ( #20, #279, #146, #282 ) ) ;
#74 = CARTESIAN_POINT ( 'NONE',  ( -1.614212418857619014, 0.000000000000000000, 12.69999999999999929 ) ) ;
#75 = VERTEX_POINT ( 'NONE', #84 ) ;
#76 = DATE_TIME_ROLE ( 'classification_date' ) ;
#77 = CARTESIAN_POINT ( 'NONE',  ( -3.000000000000000000, 5.000000000000000000, 0.000000000000000000 ) ) ;
#78 = COORDINATED_UNIVERSAL_TIME_OFFSET ( 8, 0, .AHEAD. ) ;
#79 = AXIS2_PLACEMENT_3D ( 'NONE', #5, #186, #137 ) ;
#80 = PLANE ( 'NONE',  #206 ) ;
#81 = DIRECTION ( 'NONE',  ( 0.000000000000000000, 0.000000000000000000, 1.000000000000000000 ) ) ;
#82 = AXIS2_PLACEMENT_3D ( 'NONE', #15, #114, #246 ) ;
#83 = DIRECTION ( 'NONE',  ( -1.000000000000000000, -0.000000000000000000, -0.000000000000000000 ) ) ;
#84 = CARTESIAN_POINT ( 'NONE',  ( -1.250000000000000222, 0.000000000000000000, 5.000000000000000888 ) ) ;
#85 =( NAMED_UNIT ( * ) PLANE_ANGLE_UNIT ( ) SI_UNIT ( $, .RADIAN. ) );
#86 = AXIS2_PLACEMENT_3D ( 'NONE', #269, #220, #64 ) ;
#87 = MECHANICAL_CONTEXT ( 'NONE', #332, 'mechanical' ) ;
#88 = ADVANCED_FACE ( 'NONE', ( #138 ), #2, .F. ) ;
#89 = CARTESIAN_POINT ( 'NONE',  ( -1.250000000000000222, 6.123233995736767268E-16, -5.000000000000000888 ) ) ;
#90 = CC_DESIGN_PERSON_AND_ORGANIZATION_ASSIGNMENT ( #118, #310, ( #203 ) ) ;
#91 = PERSON_AND_ORGANIZATION ( #34, #58 ) ;
#92 = CIRCLE ( 'NONE', #284, 5.000000000000000000 ) ;
#93 = FACE_OUTER_BOUND ( 'NONE', #181, .T. ) ;
#94 = EDGE_LOOP ( 'NONE', ( #281, #25, #154, #300 ) ) ;
#95 = VERTEX_POINT ( 'NONE', #33 ) ;
#96 = DIRECTION ( 'NONE',  ( -1.000000000000000000, -0.000000000000000000, -0.000000000000000000 ) ) ;
#97 = AXIS2_PLACEMENT_3D ( 'NONE', #164, #55, #81 ) ;
#98 = EDGE_CURVE ( 'NONE', #201, #259, #311, .T. ) ;
#99 = CARTESIAN_POINT ( 'NONE',  ( 3.000000000000000000, 12.69999999999999929, 0.000000000000000000 ) ) ;
#100 = APPROVAL_STATUS ( 'not_yet_approved' ) ;
#101 = CC_DESIGN_SECURITY_CLASSIFICATION ( #225, ( #24 ) ) ;
#102 = PLANE ( 'NONE',  #158 ) ;
#103 = PERSON_AND_ORGANIZATION_ROLE ( 'classification_officer' ) ;
#104 = EDGE_CURVE ( 'NONE', #306, #75, #333, .T. ) ;
#105 = DIRECTION ( 'NONE',  ( -1.000000000000000000, -0.000000000000000000, -0.000000000000000000 ) ) ;
#106 = VECTOR ( 'NONE', #105, 1000.000000000000000 ) ;
#107 = CARTESIAN_POINT ( 'NONE',  ( -1.250000000000000222, 0.000000000000000000, 0.000000000000000000 ) ) ;
#108 = EDGE_CURVE ( 'NONE', #115, #245, #189, .T. ) ;
#109 = PLANE ( 'NONE',  #130 ) ;
#110 = CIRCLE ( 'NONE', #295, 5.000000000000000000 ) ;
#111 = LINE ( 'NONE', #315, #318 ) ;
#112 = DIRECTION ( 'NONE',  ( -1.000000000000000000, -0.000000000000000000, -0.000000000000000000 ) ) ;
#113 = AXIS2_PLACEMENT_3D ( 'NONE', #107, #309, #182 ) ;
#114 = DIRECTION ( 'NONE',  ( -1.000000000000000000, -0.000000000000000000, -0.000000000000000000 ) ) ;
#115 = VERTEX_POINT ( 'NONE', #217 ) ;
#116 = CARTESIAN_POINT ( 'NONE',  ( -1.614212418857619014, 0.000000000000000000, 0.000000000000000000 ) ) ;
#117 = DIRECTION ( 'NONE',  ( 0.000000000000000000, 0.000000000000000000, 1.000000000000000000 ) ) ;
#118 = PERSON_AND_ORGANIZATION ( #34, #58 ) ;
#119 = CC_DESIGN_DATE_AND_TIME_ASSIGNMENT ( #236, #120, ( #264 ) ) ;
#120 = DATE_TIME_ROLE ( 'creation_date' ) ;
#121 = EDGE_LOOP ( 'NONE', ( #179, #123, #231, #226 ) ) ;
#122 = PERSON_AND_ORGANIZATION ( #34, #58 ) ;
#123 = ORIENTED_EDGE ( 'NONE', *, *, #187, .F. ) ;
#124 = ORIENTED_EDGE ( 'NONE', *, *, #98, .F. ) ;
#125 = AXIS2_PLACEMENT_3D ( 'NONE', #14, #272, #117 ) ;
#126 = CYLINDRICAL_SURFACE ( 'NONE', #40, 5.000000000000000888 ) ;
#127 = PRODUCT_DEFINITION_SHAPE ( 'NONE', 'NONE',  #264 ) ;
#128 = FACE_OUTER_BOUND ( 'NONE', #221, .T. ) ;
#129 = DATE_AND_TIME ( #327, #185 ) ;
#130 = AXIS2_PLACEMENT_3D ( 'NONE', #157, #268, #215 ) ;
#131 = DIRECTION ( 'NONE',  ( -1.000000000000000000, -0.000000000000000000, -0.000000000000000000 ) ) ;
#132 = UNCERTAINTY_MEASURE_WITH_UNIT (LENGTH_MEASURE( 1.000000000000000082E-05 ), #219, 'distance_accuracy_value', 'NONE');
#133 = EDGE_CURVE ( 'NONE', #75, #306, #69, .T. ) ;
#134 = COORDINATED_UNIVERSAL_TIME_OFFSET ( 8, 0, .AHEAD. ) ;
#135 = LINE ( 'NONE', #6, #147 ) ;
#136 = APPLICATION_PROTOCOL_DEFINITION ( 'international standard', 'config_control_design', 1994, #17 ) ;
#137 = DIRECTION ( 'NONE',  ( 0.000000000000000000, 0.000000000000000000, 1.000000000000000000 ) ) ;
#138 = FACE_OUTER_BOUND ( 'NONE', #234, .T. ) ;
#139 = FACE_OUTER_BOUND ( 'NONE', #94, .T. ) ;
#140 = CARTESIAN_POINT ( 'NONE',  ( 3.000000000000000000, 0.000000000000000000, 0.000000000000000000 ) ) ;
#141 = CYLINDRICAL_SURFACE ( 'NONE', #82, 12.69999999999999929 ) ;
#142 = CARTESIAN_POINT ( 'NONE',  ( 0.000000000000000000, 0.000000000000000000, 0.000000000000000000 ) ) ;
#143 = CC_DESIGN_APPROVAL ( #216, ( #225 ) ) ;
#144 = LINE ( 'NONE', #145, #197 ) ;
#145 = CARTESIAN_POINT ( 'NONE',  ( -1.614212418857619014, 6.123233995736767268E-16, -5.000000000000000888 ) ) ;
#146 = ORIENTED_EDGE ( 'NONE', *, *, #316, .F. ) ;
#147 = VECTOR ( 'NONE', #165, 1000.000000000000000 ) ;
#148 = PERSON_AND_ORGANIZATION ( #34, #58 ) ;
#149 = VERTEX_POINT ( 'NONE', #286 ) ;
#150 = PERSON_AND_ORGANIZATION_ROLE ( 'creator' ) ;
#151 = DIRECTION ( 'NONE',  ( 0.000000000000000000, 0.000000000000000000, 1.000000000000000000 ) ) ;
#152 = EDGE_LOOP ( 'NONE', ( #23, #328 ) ) ;
#153 = VERTEX_POINT ( 'NONE', #190 ) ;
#154 = ORIENTED_EDGE ( 'NONE', *, *, #38, .T. ) ;
#155 = COORDINATED_UNIVERSAL_TIME_OFFSET ( 8, 0, .AHEAD. ) ;
#156 = CC_DESIGN_PERSON_AND_ORGANIZATION_ASSIGNMENT ( #91, #103, ( #225 ) ) ;
#157 = CARTESIAN_POINT ( 'NONE',  ( 1.250000000000000222, 5.000000000000000000, 0.000000000000000000 ) ) ;
#158 = AXIS2_PLACEMENT_3D ( 'NONE', #77, #56, #159 ) ;
#159 = DIRECTION ( 'NONE',  ( 0.000000000000000000, 0.000000000000000000, -1.000000000000000000 ) ) ;
#160 = DESIGN_CONTEXT ( 'detailed design', #17, 'design' ) ;
#161 = CALENDAR_DATE ( 2020, 23, 12 ) ;
#162 = LOCAL_TIME ( 9, 21, 5.000000000000000000, #134 ) ;
#163 =( GEOMETRIC_REPRESENTATION_CONTEXT ( 3 ) GLOBAL_UNCERTAINTY_ASSIGNED_CONTEXT ( ( #132 ) ) GLOBAL_UNIT_ASSIGNED_CONTEXT ( ( #219, #85, #63 ) ) REPRESENTATION_CONTEXT ( 'NONE', 'WORKASPACE' ) );
#164 = CARTESIAN_POINT ( 'NONE',  ( -1.614212418857619014, 0.000000000000000000, 0.000000000000000000 ) ) ;
#165 = DIRECTION ( 'NONE',  ( -1.000000000000000000, -0.000000000000000000, -0.000000000000000000 ) ) ;
#166 = ADVANCED_FACE ( 'NONE', ( #288 ), #109, .F. ) ;
#167 = DIRECTION ( 'NONE',  ( -1.000000000000000000, -0.000000000000000000, -0.000000000000000000 ) ) ;
#168 = FACE_OUTER_BOUND ( 'NONE', #73, .T. ) ;
#169 = CC_DESIGN_DATE_AND_TIME_ASSIGNMENT ( #250, #76, ( #225 ) ) ;
#170 = EDGE_CURVE ( 'NONE', #306, #254, #111, .T. ) ;
#171 = AXIS2_PLACEMENT_3D ( 'NONE', #210, #167, #237 ) ;
#172 = CARTESIAN_POINT ( 'NONE',  ( -3.000000000000000000, 0.000000000000000000, 12.69999999999999929 ) ) ;
#173 = DIRECTION ( 'NONE',  ( -1.000000000000000000, -0.000000000000000000, -0.000000000000000000 ) ) ;
#174 = CIRCLE ( 'NONE', #298, 5.000000000000001776 ) ;
#175 = CALENDAR_DATE ( 2020, 23, 12 ) ;
#176 = ORIENTED_EDGE ( 'NONE', *, *, #320, .T. ) ;
#177 = CALENDAR_DATE ( 2020, 23, 12 ) ;
#178 = VERTEX_POINT ( 'NONE', #188 ) ;
#179 = ORIENTED_EDGE ( 'NONE', *, *, #247, .F. ) ;
#180 = CC_DESIGN_APPROVAL ( #200, ( #264 ) ) ;
#181 = EDGE_LOOP ( 'NONE', ( #249, #297, #47, #26 ) ) ;
#182 = DIRECTION ( 'NONE',  ( 0.000000000000000000, 0.000000000000000000, -1.000000000000000000 ) ) ;
#183 = SECURITY_CLASSIFICATION_LEVEL ( 'unclassified' ) ;
#184 = DIRECTION ( 'NONE',  ( 0.000000000000000000, 0.000000000000000000, -1.000000000000000000 ) ) ;
#185 = LOCAL_TIME ( 9, 21, 5.000000000000000000, #155 ) ;
#186 = DIRECTION ( 'NONE',  ( -1.000000000000000000, -0.000000000000000000, -0.000000000000000000 ) ) ;
#187 = EDGE_CURVE ( 'NONE', #259, #201, #174, .T. ) ;
#188 = CARTESIAN_POINT ( 'NONE',  ( 1.250000000000000444, 0.000000000000000000, 5.000000000000000000 ) ) ;
#189 = CIRCLE ( 'NONE', #171, 12.69999999999999929 ) ;
#190 = CARTESIAN_POINT ( 'NONE',  ( 1.250000000000000444, 6.123233995736766282E-16, -5.000000000000000000 ) ) ;
#191 = CC_DESIGN_PERSON_AND_ORGANIZATION_ASSIGNMENT ( #276, #150, ( #264 ) ) ;
#192 = DIRECTION ( 'NONE',  ( 0.000000000000000000, 0.000000000000000000, 1.000000000000000000 ) ) ;
#193 = DIRECTION ( 'NONE',  ( 1.000000000000000000, 0.000000000000000000, 0.000000000000000000 ) ) ;
#194 = DIRECTION ( 'NONE',  ( -1.000000000000000000, -0.000000000000000000, -0.000000000000000000 ) ) ;
#195 = LOCAL_TIME ( 9, 21, 5.000000000000000000, #211 ) ;
#196 = DATE_AND_TIME ( #177, #195 ) ;
#197 = VECTOR ( 'NONE', #173, 1000.000000000000000 ) ;
#198 = DIRECTION ( 'NONE',  ( 0.000000000000000000, 0.000000000000000000, 1.000000000000000000 ) ) ;
#199 = AXIS2_PLACEMENT_3D ( 'NONE', #116, #325, #222 ) ;
#200 = APPROVAL ( #45, 'UNSPECIFIED' ) ;
#201 = VERTEX_POINT ( 'NONE', #213 ) ;
#202 = AXIS2_PLACEMENT_3D ( 'NONE', #142, #192, #193 ) ;
#203 = PRODUCT ( 'Q-QZWP-R4-10-1030-M', 'Q-QZWP-R4-10-1030-M', '', ( #87 ) ) ;
#204 = ORIENTED_EDGE ( 'NONE', *, *, #133, .F. ) ;
#205 = FACE_OUTER_BOUND ( 'NONE', #283, .T. ) ;
#206 = AXIS2_PLACEMENT_3D ( 'NONE', #292, #267, #60 ) ;
#207 = DIRECTION ( 'NONE',  ( -1.000000000000000000, 0.000000000000000000, -0.000000000000000000 ) ) ;
#208 = LOCAL_TIME ( 9, 21, 5.000000000000000000, #209 ) ;
#209 = COORDINATED_UNIVERSAL_TIME_OFFSET ( 8, 0, .AHEAD. ) ;
#210 = CARTESIAN_POINT ( 'NONE',  ( -3.000000000000000000, 0.000000000000000000, 0.000000000000000000 ) ) ;
#211 = COORDINATED_UNIVERSAL_TIME_OFFSET ( 8, 0, .AHEAD. ) ;
#212 = CARTESIAN_POINT ( 'NONE',  ( -1.614212418857619014, 0.000000000000000000, 5.000000000000000888 ) ) ;
#213 = CARTESIAN_POINT ( 'NONE',  ( 3.000000000000000000, 6.123233995736768255E-16, -5.000000000000001776 ) ) ;
#214 = ADVANCED_FACE ( 'NONE', ( #314, #28 ), #102, .F. ) ;
#215 = DIRECTION ( 'NONE',  ( -0.000000000000000000, 0.000000000000000000, 1.000000000000000000 ) ) ;
#216 = APPROVAL ( #100, 'UNSPECIFIED' ) ;
#217 = CARTESIAN_POINT ( 'NONE',  ( -3.000000000000000000, 1.555301434917138433E-15, -12.69999999999999929 ) ) ;
#218 = CC_DESIGN_PERSON_AND_ORGANIZATION_ASSIGNMENT ( #122, #239, ( #24 ) ) ;
#219 =( LENGTH_UNIT ( ) NAMED_UNIT ( * ) SI_UNIT ( .MILLI., .METRE. ) );
#220 = DIRECTION ( 'NONE',  ( -1.000000000000000000, -0.000000000000000000, -0.000000000000000000 ) ) ;
#221 = EDGE_LOOP ( 'NONE', ( #330, #324 ) ) ;
#222 = DIRECTION ( 'NONE',  ( 0.000000000000000000, 0.000000000000000000, 1.000000000000000000 ) ) ;
#223 = EDGE_CURVE ( 'NONE', #75, #149, #263, .T. ) ;
#224 = CARTESIAN_POINT ( 'NONE',  ( 1.250000000000000444, 0.000000000000000000, 0.000000000000000000 ) ) ;
#225 = SECURITY_CLASSIFICATION ( '', '', #183 ) ;
#226 = ORIENTED_EDGE ( 'NONE', *, *, #248, .T. ) ;
#227 = PERSON_AND_ORGANIZATION_ROLE ( 'creator' ) ;
#228 = ORIENTED_EDGE ( 'NONE', *, *, #320, .F. ) ;
#229 = ADVANCED_FACE ( 'NONE', ( #266 ), #32, .F. ) ;
#230 = PERSON_AND_ORGANIZATION ( #34, #58 ) ;
#231 = ORIENTED_EDGE ( 'NONE', *, *, #258, .T. ) ;
#232 = LINE ( 'NONE', #74, #27 ) ;
#233 = VECTOR ( 'NONE', #194, 1000.000000000000000 ) ;
#234 = EDGE_LOOP ( 'NONE', ( #124, #244, #273, #49 ) ) ;
#235 = FACE_BOUND ( 'NONE', #326, .T. ) ;
#236 = DATE_AND_TIME ( #161, #52 ) ;
#237 = DIRECTION ( 'NONE',  ( 0.000000000000000000, 0.000000000000000000, 1.000000000000000000 ) ) ;
#238 = CIRCLE ( 'NONE', #86, 5.000000000000000000 ) ;
#239 = PERSON_AND_ORGANIZATION_ROLE ( 'design_supplier' ) ;
#240 = CARTESIAN_POINT ( 'NONE',  ( -1.250000000000000222, 0.000000000000000000, 0.000000000000000000 ) ) ;
#241 = CARTESIAN_POINT ( 'NONE',  ( 3.000000000000000000, 0.000000000000000000, 0.000000000000000000 ) ) ;
#242 = DIRECTION ( 'NONE',  ( 0.000000000000000000, 0.000000000000000000, 1.000000000000000000 ) ) ;
#243 = CARTESIAN_POINT ( 'NONE',  ( -3.000000000000000000, 6.123233995736766282E-16, -5.000000000000000000 ) ) ;
#244 = ORIENTED_EDGE ( 'NONE', *, *, #247, .T. ) ;
#245 = VERTEX_POINT ( 'NONE', #172 ) ;
#246 = DIRECTION ( 'NONE',  ( 0.000000000000000000, 0.000000000000000000, 1.000000000000000000 ) ) ;
#247 = EDGE_CURVE ( 'NONE', #201, #153, #144, .T. ) ;
#248 = EDGE_CURVE ( 'NONE', #178, #153, #92, .T. ) ;
#249 = ORIENTED_EDGE ( 'NONE', *, *, #133, .T. ) ;
#250 = DATE_AND_TIME ( #54, #162 ) ;
#251 = EDGE_LOOP ( 'NONE', ( #228, #50 ) ) ;
#252 = EDGE_CURVE ( 'NONE', #255, #95, #66, .T. ) ;
#253 = APPROVAL_DATE_TIME ( #278, #335 ) ;
#254 = VERTEX_POINT ( 'NONE', #243 ) ;
#255 = VERTEX_POINT ( 'NONE', #8 ) ;
#256 = ORIENTED_EDGE ( 'NONE', *, *, #98, .T. ) ;
#257 = CIRCLE ( 'NONE', #125, 12.69999999999999929 ) ;
#258 = EDGE_CURVE ( 'NONE', #259, #178, #41, .T. ) ;
#259 = VERTEX_POINT ( 'NONE', #12 ) ;
#260 = DIRECTION ( 'NONE',  ( 0.000000000000000000, 0.000000000000000000, 1.000000000000000000 ) ) ;
#261 = AXIS2_PLACEMENT_3D ( 'NONE', #99, #207, #290 ) ;
#262 = PRODUCT_RELATED_PRODUCT_CATEGORY ( 'detail', '', ( #203 ) ) ;
#263 = LINE ( 'NONE', #212, #106 ) ;
#264 = PRODUCT_DEFINITION ( 'UNKNOWN', '', #24, #160 ) ;
#265 = AXIS2_PLACEMENT_3D ( 'NONE', #322, #274, #44 ) ;
#266 = FACE_OUTER_BOUND ( 'NONE', #121, .T. ) ;
#267 = DIRECTION ( 'NONE',  ( 1.000000000000000000, 0.000000000000000000, 0.000000000000000000 ) ) ;
#268 = DIRECTION ( 'NONE',  ( -1.000000000000000000, 0.000000000000000000, -0.000000000000000000 ) ) ;
#269 = CARTESIAN_POINT ( 'NONE',  ( -3.000000000000000000, 0.000000000000000000, 0.000000000000000000 ) ) ;
#270 = AXIS2_PLACEMENT_3D ( 'NONE', #305, #334, #151 ) ;
#271 = AXIS2_PLACEMENT_3D ( 'NONE', #241, #7, #4 ) ;
#272 = DIRECTION ( 'NONE',  ( -1.000000000000000000, -0.000000000000000000, -0.000000000000000000 ) ) ;
#273 = ORIENTED_EDGE ( 'NONE', *, *, #308, .T. ) ;
#274 = DIRECTION ( 'NONE',  ( -1.000000000000000000, -0.000000000000000000, -0.000000000000000000 ) ) ;
#275 = CIRCLE ( 'NONE', #313, 12.69999999999999929 ) ;
#276 = PERSON_AND_ORGANIZATION ( #34, #58 ) ;
#277 = CC_DESIGN_PERSON_AND_ORGANIZATION_ASSIGNMENT ( #280, #227, ( #24 ) ) ;
#278 = DATE_AND_TIME ( #175, #208 ) ;
#279 = ORIENTED_EDGE ( 'NONE', *, *, #62, .T. ) ;
#280 = PERSON_AND_ORGANIZATION ( #34, #58 ) ;
#281 = ORIENTED_EDGE ( 'NONE', *, *, #62, .F. ) ;
#282 = ORIENTED_EDGE ( 'NONE', *, *, #38, .F. ) ;
#283 = EDGE_LOOP ( 'NONE', ( #71, #53, #331, #176 ) ) ;
#284 = AXIS2_PLACEMENT_3D ( 'NONE', #224, #293, #39 ) ;
#285 = ADVANCED_FACE ( 'NONE', ( #168 ), #141, .T. ) ;
#286 = CARTESIAN_POINT ( 'NONE',  ( -3.000000000000000000, 0.000000000000000000, 5.000000000000000000 ) ) ;
#287 = CLOSED_SHELL ( 'NONE', ( #285, #11, #88, #166, #229, #35, #214, #51, #48, #68 ) ) ;
#288 = FACE_OUTER_BOUND ( 'NONE', #42, .T. ) ;
#289 = APPROVAL_PERSON_ORGANIZATION ( #230, #216, #21 ) ;
#290 = DIRECTION ( 'NONE',  ( -0.000000000000000000, 0.000000000000000000, 1.000000000000000000 ) ) ;
#291 = ADVANCED_BREP_SHAPE_REPRESENTATION ( 'Q-QZWP-R4-10-1030-M', ( #61, #202 ), #163 ) ;
#292 = CARTESIAN_POINT ( 'NONE',  ( -1.250000000000000222, 5.000000000000000000, 0.000000000000000000 ) ) ;
#293 = DIRECTION ( 'NONE',  ( -1.000000000000000000, -0.000000000000000000, -0.000000000000000000 ) ) ;
#294 = DIRECTION ( 'NONE',  ( 0.000000000000000000, 0.000000000000000000, 1.000000000000000000 ) ) ;
#295 = AXIS2_PLACEMENT_3D ( 'NONE', #43, #112, #67 ) ;
#296 = APPROVAL_DATE_TIME ( #129, #216 ) ;
#297 = ORIENTED_EDGE ( 'NONE', *, *, #170, .T. ) ;
#298 = AXIS2_PLACEMENT_3D ( 'NONE', #36, #131, #260 ) ;
#299 = APPROVAL_ROLE ( '' ) ;
#300 = ORIENTED_EDGE ( 'NONE', *, *, #108, .F. ) ;
#301 = APPROVAL_DATE_TIME ( #196, #200 ) ;
#302 = CYLINDRICAL_SURFACE ( 'NONE', #270, 5.000000000000000888 ) ;
#303 = ORIENTED_EDGE ( 'NONE', *, *, #308, .F. ) ;
#304 = EDGE_CURVE ( 'NONE', #254, #149, #238, .T. ) ;
#305 = CARTESIAN_POINT ( 'NONE',  ( -1.614212418857619014, 0.000000000000000000, 0.000000000000000000 ) ) ;
#306 = VERTEX_POINT ( 'NONE', #89 ) ;
#307 = SHAPE_DEFINITION_REPRESENTATION ( #127, #291 ) ;
#308 = EDGE_CURVE ( 'NONE', #153, #178, #30, .T. ) ;
#309 = DIRECTION ( 'NONE',  ( 1.000000000000000000, 0.000000000000000000, 0.000000000000000000 ) ) ;
#310 = PERSON_AND_ORGANIZATION_ROLE ( 'design_owner' ) ;
#311 = CIRCLE ( 'NONE', #271, 5.000000000000001776 ) ;
#312 = FACE_OUTER_BOUND ( 'NONE', #13, .T. ) ;
#313 = AXIS2_PLACEMENT_3D ( 'NONE', #317, #57, #242 ) ;
#314 = FACE_BOUND ( 'NONE', #251, .T. ) ;
#315 = CARTESIAN_POINT ( 'NONE',  ( -1.614212418857619014, 6.123233995736767268E-16, -5.000000000000000888 ) ) ;
#316 = EDGE_CURVE ( 'NONE', #245, #115, #257, .T. ) ;
#317 = CARTESIAN_POINT ( 'NONE',  ( 3.000000000000000000, 0.000000000000000000, 0.000000000000000000 ) ) ;
#318 = VECTOR ( 'NONE', #83, 1000.000000000000000 ) ;
#319 = CARTESIAN_POINT ( 'NONE',  ( -1.614212418857619014, 0.000000000000000000, 5.000000000000000888 ) ) ;
#320 = EDGE_CURVE ( 'NONE', #149, #254, #110, .T. ) ;
#321 = AXIS2_PLACEMENT_3D ( 'NONE', #140, #16, #294 ) ;
#322 = CARTESIAN_POINT ( 'NONE',  ( 1.250000000000000444, 0.000000000000000000, 0.000000000000000000 ) ) ;
#323 = APPLICATION_PROTOCOL_DEFINITION ( 'international standard', 'config_control_design', 1994, #332 ) ;
#324 = ORIENTED_EDGE ( 'NONE', *, *, #70, .F. ) ;
#325 = DIRECTION ( 'NONE',  ( -1.000000000000000000, -0.000000000000000000, -0.000000000000000000 ) ) ;
#326 = EDGE_LOOP ( 'NONE', ( #46, #256 ) ) ;
#327 = CALENDAR_DATE ( 2020, 23, 12 ) ;
#328 = ORIENTED_EDGE ( 'NONE', *, *, #108, .T. ) ;
#329 = DIRECTION ( 'NONE',  ( -1.000000000000000000, -0.000000000000000000, -0.000000000000000000 ) ) ;
#330 = ORIENTED_EDGE ( 'NONE', *, *, #252, .F. ) ;
#331 = ORIENTED_EDGE ( 'NONE', *, *, #223, .T. ) ;
#332 = APPLICATION_CONTEXT ( 'configuration controlled 3d designs of mechanical parts and assemblies' ) ;
#333 = CIRCLE ( 'NONE', #9, 5.000000000000000888 ) ;
#334 = DIRECTION ( 'NONE',  ( -1.000000000000000000, -0.000000000000000000, -0.000000000000000000 ) ) ;
#335 = APPROVAL ( #1, 'UNSPECIFIED' ) ;
ENDSEC;
END-ISO-10303-21;
